ISO-10303-21;
HEADER;
FILE_DESCRIPTION( ( 'STEP AP214' ), '1' );
FILE_NAME( 'C:/Users/Segreteria/Desktop/CA.GAZ.16.14.60.stp', '2016-03-30T08:04:34', ( ' ' ), ( ' ' ), 'XStep 1.0', ' ', ' ' );
FILE_SCHEMA( ( 'CONFIG_CONTROL_DESIGN)   ( )' ) );
ENDSEC;
DATA;
#1 = MECHANICAL_DESIGN_GEOMETRIC_PRESENTATION_REPRESENTATION( ' ', ( #14, #15, #16, #17, #18, #19, #20, #21, #22, #23 ), #10 );
#2 = PRODUCT_DEFINITION_CONTEXT( '', #24, 'design' );
#3 = APPLICATION_PROTOCOL_DEFINITION( 'INTERNATIONAL STANDARD', 'automotive_design', 1994, #24 );
#4 = PRODUCT_CATEGORY_RELATIONSHIP( 'NONE', 'NONE', #25, #26 );
#5 = SHAPE_DEFINITION_REPRESENTATION( #27, #28 );
#6 = PRODUCT_DEFINITION_CONTEXT( '', #29, 'design' );
#7 = APPLICATION_PROTOCOL_DEFINITION( 'INTERNATIONAL STANDARD', 'automotive_design', 1994, #29 );
#8 = PRODUCT_CATEGORY_RELATIONSHIP( 'NONE', 'NONE', #30, #31 );
#9 = SHAPE_DEFINITION_REPRESENTATION( #32, #33 );
#10 =  ( GEOMETRIC_REPRESENTATION_CONTEXT( 3 )GLOBAL_UNCERTAINTY_ASSIGNED_CONTEXT( ( #36 ) )GLOBAL_UNIT_ASSIGNED_CONTEXT( ( #38, #39, #40 ) )REPRESENTATION_CONTEXT( 'NONE', 'WORKSPACE' ) );
#14 = STYLED_ITEM( '', ( #42 ), #43 );
#15 = STYLED_ITEM( '', ( #44 ), #45 );
#16 = STYLED_ITEM( '', ( #46 ), #47 );
#17 = STYLED_ITEM( '', ( #48 ), #49 );
#18 = STYLED_ITEM( '', ( #50 ), #51 );
#19 = STYLED_ITEM( '', ( #52 ), #53 );
#20 = STYLED_ITEM( '', ( #54 ), #55 );
#21 = STYLED_ITEM( '', ( #56 ), #57 );
#22 = STYLED_ITEM( '', ( #58 ), #59 );
#23 = STYLED_ITEM( '', ( #60 ), #61 );
#24 = APPLICATION_CONTEXT( ' ' );
#25 = PRODUCT_CATEGORY( 'part', 'NONE' );
#26 = PRODUCT_RELATED_PRODUCT_CATEGORY( 'detail', ' ', ( #62 ) );
#27 = PRODUCT_DEFINITION_SHAPE( 'NONE', 'NONE', #63 );
#28 = ADVANCED_BREP_SHAPE_REPRESENTATION( 'Assem1', ( #64, #65 ), #10 );
#29 = APPLICATION_CONTEXT( ' ' );
#30 = PRODUCT_CATEGORY( 'part', 'NONE' );
#31 = PRODUCT_RELATED_PRODUCT_CATEGORY( 'detail', ' ', ( #66 ) );
#32 = PRODUCT_DEFINITION_SHAPE( 'NONE', 'NONE', #67 );
#33 = ADVANCED_BREP_SHAPE_REPRESENTATION( 'GAZ.16.14.60', ( #68 ), #10 );
#36 = UNCERTAINTY_MEASURE_WITH_UNIT( LENGTH_MEASURE( 1.00000000000000E-006 ), #38, '', '' );
#38 =  ( CONVERSION_BASED_UNIT( 'METRE', #71 )LENGTH_UNIT(  )NAMED_UNIT( #74 ) );
#39 =  ( NAMED_UNIT( #76 )PLANE_ANGLE_UNIT(  )SI_UNIT( $, .RADIAN. ) );
#40 =  ( NAMED_UNIT( #76 )SOLID_ANGLE_UNIT(  )SI_UNIT( $, .STERADIAN. ) );
#42 = PRESENTATION_STYLE_ASSIGNMENT( ( #82 ) );
#43 = ADVANCED_FACE( '', ( #83, #84 ), #85, .F. );
#44 = PRESENTATION_STYLE_ASSIGNMENT( ( #86 ) );
#45 = ADVANCED_FACE( '', ( #87 ), #88, .T. );
#46 = PRESENTATION_STYLE_ASSIGNMENT( ( #89 ) );
#47 = ADVANCED_FACE( '', ( #90, #91, #92, #93 ), #94, .T. );
#48 = PRESENTATION_STYLE_ASSIGNMENT( ( #95 ) );
#49 = ADVANCED_FACE( '', ( #96, #97 ), #98, .F. );
#50 = PRESENTATION_STYLE_ASSIGNMENT( ( #99 ) );
#51 = ADVANCED_FACE( '', ( #100, #101 ), #102, .F. );
#52 = PRESENTATION_STYLE_ASSIGNMENT( ( #103 ) );
#53 = ADVANCED_FACE( '', ( #104, #105 ), #106, .F. );
#54 = PRESENTATION_STYLE_ASSIGNMENT( ( #107 ) );
#55 = ADVANCED_FACE( '', ( #108, #109 ), #110, .T. );
#56 = PRESENTATION_STYLE_ASSIGNMENT( ( #111 ) );
#57 = ADVANCED_FACE( '', ( #112, #113, #114 ), #115, .F. );
#58 = PRESENTATION_STYLE_ASSIGNMENT( ( #116 ) );
#59 = ADVANCED_FACE( '', ( #117 ), #118, .F. );
#60 = PRESENTATION_STYLE_ASSIGNMENT( ( #119 ) );
#61 = ADVANCED_FACE( '', ( #120, #121 ), #122, .F. );
#62 = PRODUCT( 'Assem1', 'Assem1', 'PART-Assem1-DESC', ( #123 ) );
#63 = PRODUCT_DEFINITION( 'NONE', 'NONE', #124, #2 );
#64 = MAPPED_ITEM( '', #125, #126 );
#65 = AXIS2_PLACEMENT_3D( '', #127, #128, #129 );
#66 = PRODUCT( 'GAZ.16.14.60', 'GAZ.16.14.60', 'PART-GAZ.16.14.60-DESC', ( #130 ) );
#67 = PRODUCT_DEFINITION( 'NONE', 'NONE', #131, #6 );
#68 = MANIFOLD_SOLID_BREP( 'GAZ.16.14.60', #132 );
#71 = LENGTH_MEASURE_WITH_UNIT( LENGTH_MEASURE( 1.00000000000000 ), #133 );
#74 = DIMENSIONAL_EXPONENTS( 1.00000000000000, 0.000000000000000, 0.000000000000000, 0.000000000000000, 0.000000000000000, 0.000000000000000, 0.000000000000000 );
#76 = DIMENSIONAL_EXPONENTS( 0.000000000000000, 0.000000000000000, 0.000000000000000, 0.000000000000000, 0.000000000000000, 0.000000000000000, 0.000000000000000 );
#82 = SURFACE_STYLE_USAGE( .BOTH., #134 );
#83 = FACE_OUTER_BOUND( '', #135, .T. );
#84 = FACE_OUTER_BOUND( '', #136, .T. );
#85 = CYLINDRICAL_SURFACE( '', #137, 0.00122950000000000 );
#86 = SURFACE_STYLE_USAGE( .BOTH., #138 );
#87 = FACE_OUTER_BOUND( '', #139, .T. );
#88 = PLANE( '', #140 );
#89 = SURFACE_STYLE_USAGE( .BOTH., #141 );
#90 = FACE_BOUND( '', #142, .T. );
#91 = FACE_BOUND( '', #143, .T. );
#92 = FACE_OUTER_BOUND( '', #144, .T. );
#93 = FACE_OUTER_BOUND( '', #145, .T. );
#94 = CYLINDRICAL_SURFACE( '', #146, 0.00700000000000000 );
#95 = SURFACE_STYLE_USAGE( .BOTH., #147 );
#96 = FACE_OUTER_BOUND( '', #148, .T. );
#97 = FACE_BOUND( '', #149, .T. );
#98 = CONICAL_SURFACE( '', #150, 0.00500000000000000, 1.02974425867665 );
#99 = SURFACE_STYLE_USAGE( .BOTH., #151 );
#100 = FACE_OUTER_BOUND( '', #152, .T. );
#101 = FACE_BOUND( '', #153, .T. );
#102 = PLANE( '', #154 );
#103 = SURFACE_STYLE_USAGE( .BOTH., #155 );
#104 = FACE_OUTER_BOUND( '', #156, .T. );
#105 = FACE_OUTER_BOUND( '', #157, .T. );
#106 = CYLINDRICAL_SURFACE( '', #158, 0.00500000000000000 );
#107 = SURFACE_STYLE_USAGE( .BOTH., #159 );
#108 = FACE_BOUND( '', #160, .T. );
#109 = FACE_OUTER_BOUND( '', #161, .T. );
#110 = CONICAL_SURFACE( '', #162, 0.00700000000000000, 0.785398163397447 );
#111 = SURFACE_STYLE_USAGE( .BOTH., #163 );
#112 = FACE_BOUND( '', #164, .T. );
#113 = FACE_BOUND( '', #165, .T. );
#114 = FACE_OUTER_BOUND( '', #166, .T. );
#115 = PLANE( '', #167 );
#116 = SURFACE_STYLE_USAGE( .BOTH., #168 );
#117 = FACE_OUTER_BOUND( '', #169, .T. );
#118 = PLANE( '', #170 );
#119 = SURFACE_STYLE_USAGE( .BOTH., #171 );
#120 = FACE_OUTER_BOUND( '', #172, .T. );
#121 = FACE_OUTER_BOUND( '', #173, .T. );
#122 = CYLINDRICAL_SURFACE( '', #174, 0.00122950000000000 );
#123 = PRODUCT_CONTEXT( '', #24, 'mechanical' );
#124 = PRODUCT_DEFINITION_FORMATION_WITH_SPECIFIED_SOURCE( ' ', 'NONE', #62, .NOT_KNOWN. );
#125 = REPRESENTATION_MAP( #65, #33 );
#126 = AXIS2_PLACEMENT_3D( '', #175, #176, #177 );
#127 = CARTESIAN_POINT( '', ( 0.000000000000000, 0.000000000000000, 0.000000000000000 ) );
#128 = DIRECTION( '', ( 0.000000000000000, 0.000000000000000, 1.00000000000000 ) );
#129 = DIRECTION( '', ( 1.00000000000000, 0.000000000000000, 0.000000000000000 ) );
#130 = PRODUCT_CONTEXT( '', #29, 'mechanical' );
#131 = PRODUCT_DEFINITION_FORMATION_WITH_SPECIFIED_SOURCE( ' ', 'NONE', #66, .NOT_KNOWN. );
#132 = CLOSED_SHELL( '', ( #45, #47, #49, #55, #53, #61, #57, #51, #59, #43 ) );
#133 =  ( NAMED_UNIT( #74 )LENGTH_UNIT(  )SI_UNIT( $, .METRE. ) );
#134 = SURFACE_SIDE_STYLE( '', ( #179 ) );
#135 = EDGE_LOOP( '', ( #180 ) );
#136 = EDGE_LOOP( '', ( #181 ) );
#137 = AXIS2_PLACEMENT_3D( '', #182, #183, #184 );
#138 = SURFACE_SIDE_STYLE( '', ( #185 ) );
#139 = EDGE_LOOP( '', ( #186, #187 ) );
#140 = AXIS2_PLACEMENT_3D( '', #188, #189, #190 );
#141 = SURFACE_SIDE_STYLE( '', ( #191 ) );
#142 = EDGE_LOOP( '', ( #192 ) );
#143 = EDGE_LOOP( '', ( #193 ) );
#144 = EDGE_LOOP( '', ( #194 ) );
#145 = EDGE_LOOP( '', ( #195, #196, #197, #198 ) );
#146 = AXIS2_PLACEMENT_3D( '', #199, #200, #201 );
#147 = SURFACE_SIDE_STYLE( '', ( #202 ) );
#148 = EDGE_LOOP( '', ( #203 ) );
#149 = VERTEX_LOOP( '', #204 );
#150 = AXIS2_PLACEMENT_3D( '', #205, #206, #207 );
#151 = SURFACE_SIDE_STYLE( '', ( #208 ) );
#152 = EDGE_LOOP( '', ( #209 ) );
#153 = EDGE_LOOP( '', ( #210 ) );
#154 = AXIS2_PLACEMENT_3D( '', #211, #212, #213 );
#155 = SURFACE_SIDE_STYLE( '', ( #214 ) );
#156 = EDGE_LOOP( '', ( #215 ) );
#157 = EDGE_LOOP( '', ( #216 ) );
#158 = AXIS2_PLACEMENT_3D( '', #217, #218, #219 );
#159 = SURFACE_SIDE_STYLE( '', ( #220 ) );
#160 = EDGE_LOOP( '', ( #221 ) );
#161 = EDGE_LOOP( '', ( #222 ) );
#162 = AXIS2_PLACEMENT_3D( '', #223, #224, #225 );
#163 = SURFACE_SIDE_STYLE( '', ( #226 ) );
#164 = EDGE_LOOP( '', ( #227 ) );
#165 = EDGE_LOOP( '', ( #228 ) );
#166 = EDGE_LOOP( '', ( #229, #230, #231, #232 ) );
#167 = AXIS2_PLACEMENT_3D( '', #233, #234, #235 );
#168 = SURFACE_SIDE_STYLE( '', ( #236 ) );
#169 = EDGE_LOOP( '', ( #237, #238 ) );
#170 = AXIS2_PLACEMENT_3D( '', #239, #240, #241 );
#171 = SURFACE_SIDE_STYLE( '', ( #242 ) );
#172 = EDGE_LOOP( '', ( #243 ) );
#173 = EDGE_LOOP( '', ( #244 ) );
#174 = AXIS2_PLACEMENT_3D( '', #245, #246, #247 );
#175 = CARTESIAN_POINT( '', ( 0.000000000000000, 0.000000000000000, 0.000000000000000 ) );
#176 = DIRECTION( '', ( 0.000000000000000, 0.000000000000000, 1.00000000000000 ) );
#177 = DIRECTION( '', ( 1.00000000000000, 0.000000000000000, 0.000000000000000 ) );
#179 = SURFACE_STYLE_FILL_AREA( #248 );
#180 = ORIENTED_EDGE( '', *, *, #249, .T. );
#181 = ORIENTED_EDGE( '', *, *, #250, .T. );
#182 = CARTESIAN_POINT( '', ( 0.101941159498997, -0.0332000000000000, 1.64097251412198E-018 ) );
#183 = DIRECTION( '', ( 1.00000000000000, 1.35024238738555E-017, 0.000000000000000 ) );
#184 = DIRECTION( '', ( 1.35024238738555E-017, -1.00000000000000, 0.000000000000000 ) );
#185 = SURFACE_STYLE_FILL_AREA( #251 );
#186 = ORIENTED_EDGE( '', *, *, #252, .T. );
#187 = ORIENTED_EDGE( '', *, *, #253, .T. );
#188 = CARTESIAN_POINT( '', ( 0.000000000000000, 0.000000000000000, 0.000000000000000 ) );
#189 = DIRECTION( '', ( 0.000000000000000, 1.00000000000000, 0.000000000000000 ) );
#190 = DIRECTION( '', ( 0.000000000000000, 0.000000000000000, 1.00000000000000 ) );
#191 = SURFACE_STYLE_FILL_AREA( #254 );
#192 = ORIENTED_EDGE( '', *, *, #250, .F. );
#193 = ORIENTED_EDGE( '', *, *, #255, .F. );
#194 = ORIENTED_EDGE( '', *, *, #256, .T. );
#195 = ORIENTED_EDGE( '', *, *, #257, .F. );
#196 = ORIENTED_EDGE( '', *, *, #252, .F. );
#197 = ORIENTED_EDGE( '', *, *, #258, .F. );
#198 = ORIENTED_EDGE( '', *, *, #259, .F. );
#199 = CARTESIAN_POINT( '', ( 0.000000000000000, -0.100000000000000, 0.000000000000000 ) );
#200 = DIRECTION( '', ( 0.000000000000000, -1.00000000000000, 0.000000000000000 ) );
#201 = DIRECTION( '', ( 0.000000000000000, 0.000000000000000, 1.00000000000000 ) );
#202 = SURFACE_STYLE_FILL_AREA( #260 );
#203 = ORIENTED_EDGE( '', *, *, #261, .F. );
#204 = VERTEX_POINT( '', #262 );
#205 = CARTESIAN_POINT( '', ( 0.000000000000000, -0.0500000000000000, 2.16840434497101E-019 ) );
#206 = DIRECTION( '', ( 0.000000000000000, -1.00000000000000, 0.000000000000000 ) );
#207 = DIRECTION( '', ( 0.000000000000000, 0.000000000000000, 1.00000000000000 ) );
#208 = SURFACE_STYLE_FILL_AREA( #263 );
#209 = ORIENTED_EDGE( '', *, *, #264, .T. );
#210 = ORIENTED_EDGE( '', *, *, #265, .T. );
#211 = CARTESIAN_POINT( '', ( 0.000000000000000, -0.100000000000000, 0.000000000000000 ) );
#212 = DIRECTION( '', ( 0.000000000000000, 1.00000000000000, 0.000000000000000 ) );
#213 = DIRECTION( '', ( 0.000000000000000, 0.000000000000000, 1.00000000000000 ) );
#214 = SURFACE_STYLE_FILL_AREA( #266 );
#215 = ORIENTED_EDGE( '', *, *, #261, .T. );
#216 = ORIENTED_EDGE( '', *, *, #265, .F. );
#217 = CARTESIAN_POINT( '', ( 0.000000000000000, -0.100000000000000, 2.16840434497101E-019 ) );
#218 = DIRECTION( '', ( 0.000000000000000, -1.00000000000000, 0.000000000000000 ) );
#219 = DIRECTION( '', ( 0.000000000000000, 0.000000000000000, -1.00000000000000 ) );
#220 = SURFACE_STYLE_FILL_AREA( #267 );
#221 = ORIENTED_EDGE( '', *, *, #264, .F. );
#222 = ORIENTED_EDGE( '', *, *, #256, .F. );
#223 = CARTESIAN_POINT( '', ( 0.000000000000000, -0.0995000000000000, 0.000000000000000 ) );
#224 = DIRECTION( '', ( 0.000000000000000, 1.00000000000000, 0.000000000000000 ) );
#225 = DIRECTION( '', ( 0.000000000000000, 0.000000000000000, 1.00000000000000 ) );
#226 = SURFACE_STYLE_FILL_AREA( #268 );
#227 = ORIENTED_EDGE( '', *, *, #249, .F. );
#228 = ORIENTED_EDGE( '', *, *, #269, .F. );
#229 = ORIENTED_EDGE( '', *, *, #257, .T. );
#230 = ORIENTED_EDGE( '', *, *, #270, .F. );
#231 = ORIENTED_EDGE( '', *, *, #258, .T. );
#232 = ORIENTED_EDGE( '', *, *, #253, .F. );
#233 = CARTESIAN_POINT( '', ( 8.40256683676266E-019, 0.000000000000000, 0.0300000000000000 ) );
#234 = DIRECTION( '', ( 1.00000000000000, 4.24194099984967E-019, 0.000000000000000 ) );
#235 = DIRECTION( '', ( -4.24194099984967E-019, 1.00000000000000, 0.000000000000000 ) );
#236 = SURFACE_STYLE_FILL_AREA( #271 );
#237 = ORIENTED_EDGE( '', *, *, #270, .T. );
#238 = ORIENTED_EDGE( '', *, *, #259, .T. );
#239 = CARTESIAN_POINT( '', ( 8.57224447675665E-019, -0.0400000000000000, 0.0300000000000000 ) );
#240 = DIRECTION( '', ( 0.000000000000000, -1.00000000000000, 0.000000000000000 ) );
#241 = DIRECTION( '', ( 0.000000000000000, 0.000000000000000, -1.00000000000000 ) );
#242 = SURFACE_STYLE_FILL_AREA( #272 );
#243 = ORIENTED_EDGE( '', *, *, #269, .T. );
#244 = ORIENTED_EDGE( '', *, *, #255, .T. );
#245 = CARTESIAN_POINT( '', ( 0.101941159498997, -0.00500000000000000, 3.36766747301154E-018 ) );
#246 = DIRECTION( '', ( 1.00000000000000, 1.35024238738555E-017, 0.000000000000000 ) );
#247 = DIRECTION( '', ( 1.35024238738555E-017, -1.00000000000000, 0.000000000000000 ) );
#248 = FILL_AREA_STYLE( '', ( #273 ) );
#249 = EDGE_CURVE( '', #274, #274, #275, .T. );
#250 = EDGE_CURVE( '', #276, #276, #277, .T. );
#251 = FILL_AREA_STYLE( '', ( #278 ) );
#252 = EDGE_CURVE( '', #279, #280, #281, .T. );
#253 = EDGE_CURVE( '', #280, #279, #282, .T. );
#254 = FILL_AREA_STYLE( '', ( #283 ) );
#255 = EDGE_CURVE( '', #284, #284, #285, .T. );
#256 = EDGE_CURVE( '', #286, #286, #287, .T. );
#257 = EDGE_CURVE( '', #280, #288, #289, .F. );
#258 = EDGE_CURVE( '', #290, #279, #291, .T. );
#259 = EDGE_CURVE( '', #288, #290, #292, .F. );
#260 = FILL_AREA_STYLE( '', ( #293 ) );
#261 = EDGE_CURVE( '', #294, #294, #295, .T. );
#262 = CARTESIAN_POINT( '', ( 0.000000000000000, -0.0469956969048622, 2.16840434497101E-019 ) );
#263 = FILL_AREA_STYLE( '', ( #296 ) );
#264 = EDGE_CURVE( '', #297, #297, #298, .F. );
#265 = EDGE_CURVE( '', #299, #299, #300, .T. );
#266 = FILL_AREA_STYLE( '', ( #301 ) );
#267 = FILL_AREA_STYLE( '', ( #302 ) );
#268 = FILL_AREA_STYLE( '', ( #303 ) );
#269 = EDGE_CURVE( '', #304, #304, #305, .T. );
#270 = EDGE_CURVE( '', #290, #288, #306, .T. );
#271 = FILL_AREA_STYLE( '', ( #307 ) );
#272 = FILL_AREA_STYLE( '', ( #308 ) );
#273 = FILL_AREA_STYLE_COLOUR( '', #309 );
#274 = VERTEX_POINT( '', #310 );
#275 = CIRCLE( '', #311, 0.00122950000000000 );
#276 = VERTEX_POINT( '', #312 );
#277 = B_SPLINE_CURVE_WITH_KNOTS( '', 3, ( #313, #314, #315, #316, #317, #318, #319, #320, #321, #322, #323, #324, #325, #326, #327, #328, #329, #330, #331, #332, #333, #334, #335, #336, #337, #338, #339, #340, #341, #342, #343, #344, #345, #346, #347, #348 ), .UNSPECIFIED., .T., .F., ( 2, 2, 2, 2, 2, 2, 2, 2, 2, 2, 2, 2, 2, 2, 2, 2, 2, 2, 2, 2 ), ( -0.000481371085189323, 0.000000000000000, 0.000481371085189305, 0.000962742170378609, 0.00144411325556791, 0.00192548434075722, 0.00216616988335187, 0.00240685542594652, 0.00288822651113585, 0.00336959759632517, 0.00385096868151449, 0.00433233976670381, 0.00481371085189314, 0.00529508193708246, 0.00577645302227178, 0.00625782410746111, 0.00673919519265043, 0.00722056627783976, 0.00770193736302908, 0.00818330844821838 ), .UNSPECIFIED. );
#278 = FILL_AREA_STYLE_COLOUR( '', #349 );
#279 = VERTEX_POINT( '', #350 );
#280 = VERTEX_POINT( '', #351 );
#281 = CIRCLE( '', #352, 0.00700000000000000 );
#282 = LINE( '', #353, #354 );
#283 = FILL_AREA_STYLE_COLOUR( '', #355 );
#284 = VERTEX_POINT( '', #356 );
#285 = B_SPLINE_CURVE_WITH_KNOTS( '', 3, ( #357, #358, #359, #360, #361, #362, #363, #364, #365, #366, #367, #368, #369, #370, #371, #372, #373, #374, #375, #376, #377, #378, #379, #380, #381, #382, #383, #384, #385, #386, #387, #388, #389, #390, #391, #392 ), .UNSPECIFIED., .T., .F., ( 2, 2, 2, 2, 2, 2, 2, 2, 2, 2, 2, 2, 2, 2, 2, 2, 2, 2, 2, 2 ), ( -0.000481371085189316, 0.000000000000000, 0.000481371085189319, 0.000962742170378638, 0.00144411325556796, 0.00192548434075728, 0.00216616988335193, 0.00240685542594659, 0.00288822651113591, 0.00336959759632523, 0.00385096868151455, 0.00433233976670387, 0.00481371085189319, 0.00529508193708250, 0.00577645302227182, 0.00625782410746114, 0.00673919519265045, 0.00722056627783977, 0.00770193736302908, 0.00818330844821840 ), .UNSPECIFIED. );
#286 = VERTEX_POINT( '', #393 );
#287 = CIRCLE( '', #394, 0.00700000000000000 );
#288 = VERTEX_POINT( '', #395 );
#289 = LINE( '', #396, #397 );
#290 = VERTEX_POINT( '', #398 );
#291 = LINE( '', #399, #400 );
#292 = CIRCLE( '', #401, 0.00700000000000000 );
#293 = FILL_AREA_STYLE_COLOUR( '', #402 );
#294 = VERTEX_POINT( '', #403 );
#295 = CIRCLE( '', #404, 0.00500000000000000 );
#296 = FILL_AREA_STYLE_COLOUR( '', #405 );
#297 = VERTEX_POINT( '', #406 );
#298 = CIRCLE( '', #407, 0.00650000000000000 );
#299 = VERTEX_POINT( '', #408 );
#300 = CIRCLE( '', #409, 0.00500000000000000 );
#301 = FILL_AREA_STYLE_COLOUR( '', #410 );
#302 = FILL_AREA_STYLE_COLOUR( '', #411 );
#303 = FILL_AREA_STYLE_COLOUR( '', #412 );
#304 = VERTEX_POINT( '', #413 );
#305 = CIRCLE( '', #414, 0.00122950000000000 );
#306 = LINE( '', #415, #416 );
#307 = FILL_AREA_STYLE_COLOUR( '', #417 );
#308 = FILL_AREA_STYLE_COLOUR( '', #418 );
#309 = COLOUR_RGB( '', 0.119999997317791, 0.750000000000000, 0.119999997317791 );
#310 = CARTESIAN_POINT( '', ( 1.27193592613536E-018, -0.0319705000000000, 1.64097251412198E-018 ) );
#311 = AXIS2_PLACEMENT_3D( '', #419, #420, #421 );
#312 = CARTESIAN_POINT( '', ( 0.00700000000000000, -0.0344295000000000, 1.64097251412198E-018 ) );
#313 = CARTESIAN_POINT( '', ( 0.00700000000000000, -0.0344295000000000, 0.000162791301432722 ) );
#314 = CARTESIAN_POINT( '', ( 0.00700000000000000, -0.0344295000000000, -0.000162791301432719 ) );
#315 = CARTESIAN_POINT( '', ( 0.00699415712584551, -0.0343973381512136, -0.000322511797235579 ) );
#316 = CARTESIAN_POINT( '', ( 0.00697407080917409, -0.0342738009120457, -0.000620148457224200 ) );
#317 = CARTESIAN_POINT( '', ( 0.00695995337757946, -0.0341824626760910, -0.000756343244356517 ) );
#318 = CARTESIAN_POINT( '', ( 0.00693162135123197, -0.0339560796576335, -0.000982665540511383 ) );
#319 = CARTESIAN_POINT( '', ( 0.00691736473193050, -0.0338191670487776, -0.00107421279216901 ) );
#320 = CARTESIAN_POINT( '', ( 0.00689718612192564, -0.0335234337648108, -0.00119695094173979 ) );
#321 = CARTESIAN_POINT( '', ( 0.00689119435375186, -0.0333614245364713, -0.00122940651852654 ) );
#322 = CARTESIAN_POINT( '', ( 0.00689116939121520, -0.0331203581085755, -0.00122954643012086 ) );
#323 = CARTESIAN_POINT( '', ( 0.00689261378150539, -0.0330387144457229, -0.00122152766187273 ) );
#324 = CARTESIAN_POINT( '', ( 0.00689811063979107, -0.0328809095930317, -0.00119009418573469 ) );
#325 = CARTESIAN_POINT( '', ( 0.00690213479917857, -0.0328041930768869, -0.00116683889492221 ) );
#326 = CARTESIAN_POINT( '', ( 0.00691735844691179, -0.0325806208992291, -0.00107427337669614 ) );
#327 = CARTESIAN_POINT( '', ( 0.00693144869383719, -0.0324453164230960, -0.000984027774678786 ) );
#328 = CARTESIAN_POINT( '', ( 0.00696009421701959, -0.0322163954983120, -0.000755235159964754 ) );
#329 = CARTESIAN_POINT( '', ( 0.00697408762528595, -0.0321260937838410, -0.000619926410970745 ) );
#330 = CARTESIAN_POINT( '', ( 0.00699415186871720, -0.0320026960625561, -0.000322562548206315 ) );
#331 = CARTESIAN_POINT( '', ( 0.00699998884174316, -0.0319705635281039, -0.000161120494576921 ) );
#332 = CARTESIAN_POINT( '', ( 0.00700001112458252, -0.0319704366636165, 0.000160149473999949 ) );
#333 = CARTESIAN_POINT( '', ( 0.00699415272767061, -0.0320027119696953, 0.000322242738823857 ) );
#334 = CARTESIAN_POINT( '', ( 0.00697421752483545, -0.0321252738333648, 0.000618306297060860 ) );
#335 = CARTESIAN_POINT( '', ( 0.00696008613967790, -0.0322165929577033, 0.000755162276602761 ) );
#336 = CARTESIAN_POINT( '', ( 0.00693171513257183, -0.0324430554721595, 0.000982035873384978 ) );
#337 = CARTESIAN_POINT( '', ( 0.00691752595882780, -0.0325787577856760, 0.00107321081833201 ) );
#338 = CARTESIAN_POINT( '', ( 0.00689714939503908, -0.0328768185102923, 0.00119719550373087 ) );
#339 = CARTESIAN_POINT( '', ( 0.00689120033162579, -0.0330365863721034, 0.00122937301334535 ) );
#340 = CARTESIAN_POINT( '', ( 0.00689115515184947, -0.0333614971518152, 0.00122962623983051 ) );
#341 = CARTESIAN_POINT( '', ( 0.00689708731923961, -0.0335216894999481, 0.00119753014259358 ) );
#342 = CARTESIAN_POINT( '', ( 0.00691733531711495, -0.0338190303179706, 0.00107441334793936 ) );
#343 = CARTESIAN_POINT( '', ( 0.00693156135445974, -0.0339555300187814, 0.000983072522999357 ) );
#344 = CARTESIAN_POINT( '', ( 0.00695987658072163, -0.0341819189465111, 0.000757028650209922 ) );
#345 = CARTESIAN_POINT( '', ( 0.00697404896292461, -0.0342736449222949, 0.000620161210239477 ) );
#346 = CARTESIAN_POINT( '', ( 0.00699404608107032, -0.0343966766756458, 0.000324466145877332 ) );
#347 = CARTESIAN_POINT( '', ( 0.00700000000000000, -0.0344295000000000, 0.000162791301432722 ) );
#348 = CARTESIAN_POINT( '', ( 0.00700000000000000, -0.0344295000000000, -0.000162791301432719 ) );
#349 = COLOUR_RGB( '', 0.980000019073486, 0.980000019073486, 0.980000019073486 );
#350 = CARTESIAN_POINT( '', ( 8.40256683676266E-019, 0.000000000000000, 0.00700000000000000 ) );
#351 = CARTESIAN_POINT( '', ( 8.40256683676266E-019, 0.000000000000000, -0.00700000000000000 ) );
#352 = AXIS2_PLACEMENT_3D( '', #422, #423, #424 );
#353 = CARTESIAN_POINT( '', ( 8.40256683676266E-019, 0.000000000000000, 0.000000000000000 ) );
#354 = VECTOR( '', #425, 1.00000000000000 );
#355 = COLOUR_RGB( '', 0.980000019073486, 0.980000019073486, 0.980000019073486 );
#356 = CARTESIAN_POINT( '', ( 0.00700000000000000, -0.00622950000000000, 3.36766747301154E-018 ) );
#357 = CARTESIAN_POINT( '', ( 0.00700000000000000, -0.00622950000000000, 0.000162791301432724 ) );
#358 = CARTESIAN_POINT( '', ( 0.00700000000000000, -0.00622950000000001, -0.000162791301432717 ) );
#359 = CARTESIAN_POINT( '', ( 0.00699415712584552, -0.00619733815121356, -0.000322511797235577 ) );
#360 = CARTESIAN_POINT( '', ( 0.00697407080917409, -0.00607380091204566, -0.000620148457224198 ) );
#361 = CARTESIAN_POINT( '', ( 0.00695995337757946, -0.00598246267609103, -0.000756343244356514 ) );
#362 = CARTESIAN_POINT( '', ( 0.00693162135123197, -0.00575607965763348, -0.000982665540511381 ) );
#363 = CARTESIAN_POINT( '', ( 0.00691736473193050, -0.00561916704877757, -0.00107421279216901 ) );
#364 = CARTESIAN_POINT( '', ( 0.00689718612192564, -0.00532343376481080, -0.00119695094173979 ) );
#365 = CARTESIAN_POINT( '', ( 0.00689119435375186, -0.00516142453647133, -0.00122940651852654 ) );
#366 = CARTESIAN_POINT( '', ( 0.00689116939121521, -0.00492035810857548, -0.00122954643012086 ) );
#367 = CARTESIAN_POINT( '', ( 0.00689261378150539, -0.00483871444572285, -0.00122152766187273 ) );
#368 = CARTESIAN_POINT( '', ( 0.00689811063979107, -0.00468090959303166, -0.00119009418573469 ) );
#369 = CARTESIAN_POINT( '', ( 0.00690213479917857, -0.00460419307688693, -0.00116683889492221 ) );
#370 = CARTESIAN_POINT( '', ( 0.00691735844691179, -0.00438062089922910, -0.00107427337669614 ) );
#371 = CARTESIAN_POINT( '', ( 0.00693144869383719, -0.00424531642309600, -0.000984027774678783 ) );
#372 = CARTESIAN_POINT( '', ( 0.00696009421701959, -0.00401639549831199, -0.000755235159964750 ) );
#373 = CARTESIAN_POINT( '', ( 0.00697408762528595, -0.00392609378384095, -0.000619926410970743 ) );
#374 = CARTESIAN_POINT( '', ( 0.00699415186871720, -0.00380269606255606, -0.000322562548206312 ) );
#375 = CARTESIAN_POINT( '', ( 0.00699998884174316, -0.00377056352810392, -0.000161120494576918 ) );
#376 = CARTESIAN_POINT( '', ( 0.00700001112458252, -0.00377043666361650, 0.000160149473999952 ) );
#377 = CARTESIAN_POINT( '', ( 0.00699415272767062, -0.00380271196969533, 0.000322242738823860 ) );
#378 = CARTESIAN_POINT( '', ( 0.00697421752483545, -0.00392527383336478, 0.000618306297060863 ) );
#379 = CARTESIAN_POINT( '', ( 0.00696008613967790, -0.00401659295770326, 0.000755162276602763 ) );
#380 = CARTESIAN_POINT( '', ( 0.00693171513257183, -0.00424305547215950, 0.000982035873384980 ) );
#381 = CARTESIAN_POINT( '', ( 0.00691752595882780, -0.00437875778567597, 0.00107321081833202 ) );
#382 = CARTESIAN_POINT( '', ( 0.00689714939503908, -0.00467681851029229, 0.00119719550373087 ) );
#383 = CARTESIAN_POINT( '', ( 0.00689120033162579, -0.00483658637210342, 0.00122937301334535 ) );
#384 = CARTESIAN_POINT( '', ( 0.00689115515184947, -0.00516149715181519, 0.00122962623983052 ) );
#385 = CARTESIAN_POINT( '', ( 0.00689708731923960, -0.00532168949994812, 0.00119753014259358 ) );
#386 = CARTESIAN_POINT( '', ( 0.00691733531711494, -0.00561903031797061, 0.00107441334793936 ) );
#387 = CARTESIAN_POINT( '', ( 0.00693156135445973, -0.00575553001878135, 0.000983072522999359 ) );
#388 = CARTESIAN_POINT( '', ( 0.00695987658072162, -0.00598191894651107, 0.000757028650209924 ) );
#389 = CARTESIAN_POINT( '', ( 0.00697404896292461, -0.00607364492229487, 0.000620161210239479 ) );
#390 = CARTESIAN_POINT( '', ( 0.00699404608107032, -0.00619667667564583, 0.000324466145877335 ) );
#391 = CARTESIAN_POINT( '', ( 0.00700000000000000, -0.00622950000000000, 0.000162791301432724 ) );
#392 = CARTESIAN_POINT( '', ( 0.00700000000000000, -0.00622950000000001, -0.000162791301432717 ) );
#393 = CARTESIAN_POINT( '', ( 0.000000000000000, -0.0995000000000000, 0.00700000000000000 ) );
#394 = AXIS2_PLACEMENT_3D( '', #426, #427, #428 );
#395 = CARTESIAN_POINT( '', ( 8.57224447675665E-019, -0.0400000000000000, -0.00700000000000000 ) );
#396 = CARTESIAN_POINT( '', ( 8.82676093674763E-019, -0.100000000000000, -0.00700000000000000 ) );
#397 = VECTOR( '', #429, 1.00000000000000 );
#398 = CARTESIAN_POINT( '', ( 8.57224447675665E-019, -0.0400000000000000, 0.00700000000000000 ) );
#399 = CARTESIAN_POINT( '', ( 8.82676093674763E-019, -0.100000000000000, 0.00700000000000000 ) );
#400 = VECTOR( '', #430, 1.00000000000000 );
#401 = AXIS2_PLACEMENT_3D( '', #431, #432, #433 );
#402 = COLOUR_RGB( '', 0.980000019073486, 0.980000019073486, 0.980000019073486 );
#403 = CARTESIAN_POINT( '', ( 0.000000000000000, -0.0500000000000000, 0.00500000000000000 ) );
#404 = AXIS2_PLACEMENT_3D( '', #434, #435, #436 );
#405 = COLOUR_RGB( '', 0.980000019073486, 0.980000019073486, 0.980000019073486 );
#406 = CARTESIAN_POINT( '', ( 0.000000000000000, -0.100000000000000, 0.00650000000000000 ) );
#407 = AXIS2_PLACEMENT_3D( '', #437, #438, #439 );
#408 = CARTESIAN_POINT( '', ( 0.000000000000000, -0.100000000000000, -0.00500000000000000 ) );
#409 = AXIS2_PLACEMENT_3D( '', #440, #441, #442 );
#410 = COLOUR_RGB( '', 0.980000019073486, 0.980000019073486, 0.980000019073486 );
#411 = COLOUR_RGB( '', 0.980000019073486, 0.980000019073486, 0.980000019073486 );
#412 = COLOUR_RGB( '', 0.980000019073486, 0.980000019073486, 0.980000019073486 );
#413 = CARTESIAN_POINT( '', ( 8.91167572892638E-019, -0.00377050000000000, 3.36766747301154E-018 ) );
#414 = AXIS2_PLACEMENT_3D( '', #443, #444, #445 );
#415 = CARTESIAN_POINT( '', ( 8.57224447675665E-019, -0.0400000000000000, 0.0300000000000000 ) );
#416 = VECTOR( '', #446, 1.00000000000000 );
#417 = COLOUR_RGB( '', 0.980000019073486, 0.980000019073486, 0.980000019073486 );
#418 = COLOUR_RGB( '', 0.119999997317791, 0.750000000000000, 0.119999997317791 );
#419 = CARTESIAN_POINT( '', ( 1.28853715628827E-018, -0.0332000000000000, 1.64097251412198E-018 ) );
#420 = DIRECTION( '', ( -1.00000000000000, -1.35024238738555E-017, 0.000000000000000 ) );
#421 = DIRECTION( '', ( -1.35024238738555E-017, 1.00000000000000, 0.000000000000000 ) );
#422 = CARTESIAN_POINT( '', ( 0.000000000000000, 0.000000000000000, 0.000000000000000 ) );
#423 = DIRECTION( '', ( 0.000000000000000, 1.00000000000000, 0.000000000000000 ) );
#424 = DIRECTION( '', ( 1.00000000000000, 0.000000000000000, 0.000000000000000 ) );
#425 = DIRECTION( '', ( 0.000000000000000, 0.000000000000000, 1.00000000000000 ) );
#426 = CARTESIAN_POINT( '', ( 0.000000000000000, -0.0995000000000000, 0.000000000000000 ) );
#427 = DIRECTION( '', ( 0.000000000000000, 1.00000000000000, 0.000000000000000 ) );
#428 = DIRECTION( '', ( 0.000000000000000, 0.000000000000000, 1.00000000000000 ) );
#429 = DIRECTION( '', ( 0.000000000000000, 1.00000000000000, 0.000000000000000 ) );
#430 = DIRECTION( '', ( 0.000000000000000, 1.00000000000000, 0.000000000000000 ) );
#431 = CARTESIAN_POINT( '', ( 0.000000000000000, -0.0400000000000000, 0.000000000000000 ) );
#432 = DIRECTION( '', ( 0.000000000000000, -1.00000000000000, 0.000000000000000 ) );
#433 = DIRECTION( '', ( 0.000000000000000, 0.000000000000000, -1.00000000000000 ) );
#434 = CARTESIAN_POINT( '', ( 0.000000000000000, -0.0500000000000000, 2.16840434497101E-019 ) );
#435 = DIRECTION( '', ( 0.000000000000000, 1.00000000000000, 0.000000000000000 ) );
#436 = DIRECTION( '', ( 0.000000000000000, 0.000000000000000, 1.00000000000000 ) );
#437 = CARTESIAN_POINT( '', ( 0.000000000000000, -0.100000000000000, 0.000000000000000 ) );
#438 = DIRECTION( '', ( 0.000000000000000, 1.00000000000000, 0.000000000000000 ) );
#439 = DIRECTION( '', ( 0.000000000000000, 0.000000000000000, 1.00000000000000 ) );
#440 = CARTESIAN_POINT( '', ( 0.000000000000000, -0.100000000000000, 2.16840434497101E-019 ) );
#441 = DIRECTION( '', ( 0.000000000000000, 1.00000000000000, 0.000000000000000 ) );
#442 = DIRECTION( '', ( 0.000000000000000, 0.000000000000000, -1.00000000000000 ) );
#443 = CARTESIAN_POINT( '', ( 9.07768803045543E-019, -0.00500000000000000, 3.36766747301154E-018 ) );
#444 = DIRECTION( '', ( -1.00000000000000, -1.35024238738555E-017, 0.000000000000000 ) );
#445 = DIRECTION( '', ( -1.35024238738555E-017, 1.00000000000000, 0.000000000000000 ) );
#446 = DIRECTION( '', ( 0.000000000000000, 0.000000000000000, -1.00000000000000 ) );
ENDSEC;
END-ISO-10303-21;
