ISO-10303-21;
HEADER;
FILE_DESCRIPTION(('STEP AP214'),'1');
FILE_NAME('CA.GAZ.20.20.60.stp','2017-08-01T05:50:16',(' '),(' '),'Spatial InterOp 3D',' ',' ');
FILE_SCHEMA(('automotive_design'));
ENDSEC;
DATA;
#1=MECHANICAL_DESIGN_GEOMETRIC_PRESENTATION_REPRESENTATION(' ',(#10,#11,#12,#13,#14,#15,#16,#17,#18,#19),#6);
#2=PRODUCT_DEFINITION_CONTEXT('',#20,'design');
#3=APPLICATION_PROTOCOL_DEFINITION('INTERNATIONAL STANDARD','automotive_design',1994,#20);
#4=PRODUCT_CATEGORY_RELATIONSHIP('NONE','NONE',#21,#22);
#5=SHAPE_DEFINITION_REPRESENTATION(#23,#24);
#6= (GEOMETRIC_REPRESENTATION_CONTEXT(3)GLOBAL_UNCERTAINTY_ASSIGNED_CONTEXT((#27))GLOBAL_UNIT_ASSIGNED_CONTEXT((#29,#30,#31))REPRESENTATION_CONTEXT('NONE','WORKSPACE'));
#10=STYLED_ITEM('',(#33),#34);
#11=STYLED_ITEM('',(#35),#36);
#12=STYLED_ITEM('',(#37),#38);
#13=STYLED_ITEM('',(#39),#40);
#14=STYLED_ITEM('',(#41),#42);
#15=STYLED_ITEM('',(#43),#44);
#16=STYLED_ITEM('',(#45),#46);
#17=STYLED_ITEM('',(#47),#48);
#18=STYLED_ITEM('',(#49),#50);
#19=STYLED_ITEM('',(#51),#52);
#20=APPLICATION_CONTEXT(' ');
#21=PRODUCT_CATEGORY('part','NONE');
#22=PRODUCT_RELATED_PRODUCT_CATEGORY('detail',' ',(#53));
#23=PRODUCT_DEFINITION_SHAPE('NONE','NONE',#54);
#24=ADVANCED_BREP_SHAPE_REPRESENTATION('GAZ.20.20.60',(#55,#56),#6);
#27=UNCERTAINTY_MEASURE_WITH_UNIT(LENGTH_MEASURE(0.001),#29,'','');
#29= (CONVERSION_BASED_UNIT('MILLIMETRE',#59)LENGTH_UNIT()NAMED_UNIT(#62));
#30= (NAMED_UNIT(#64)PLANE_ANGLE_UNIT()SI_UNIT($,.RADIAN.));
#31= (NAMED_UNIT(#64)SOLID_ANGLE_UNIT()SI_UNIT($,.STERADIAN.));
#33=PRESENTATION_STYLE_ASSIGNMENT((#70));
#34=ADVANCED_FACE('',(#71,#72),#73,.F.);
#35=PRESENTATION_STYLE_ASSIGNMENT((#74));
#36=ADVANCED_FACE('',(#75,#76),#77,.T.);
#37=PRESENTATION_STYLE_ASSIGNMENT((#78));
#38=ADVANCED_FACE('',(#79,#80),#81,.F.);
#39=PRESENTATION_STYLE_ASSIGNMENT((#82));
#40=ADVANCED_FACE('',(#83),#84,.T.);
#41=PRESENTATION_STYLE_ASSIGNMENT((#85));
#42=ADVANCED_FACE('',(#86,#87,#88,#89),#90,.T.);
#43=PRESENTATION_STYLE_ASSIGNMENT((#91));
#44=ADVANCED_FACE('',(#92,#93),#94,.F.);
#45=PRESENTATION_STYLE_ASSIGNMENT((#95));
#46=ADVANCED_FACE('',(#96),#97,.F.);
#47=PRESENTATION_STYLE_ASSIGNMENT((#98));
#48=ADVANCED_FACE('',(#99,#100,#101),#102,.F.);
#49=PRESENTATION_STYLE_ASSIGNMENT((#103));
#50=ADVANCED_FACE('',(#104,#105),#106,.F.);
#51=PRESENTATION_STYLE_ASSIGNMENT((#107));
#52=ADVANCED_FACE('',(#108,#109),#110,.F.);
#53=PRODUCT('GAZ.20.20.60','GAZ.20.20.60','PART-GAZ.20.20.60-DESC',(#111));
#54=PRODUCT_DEFINITION('NONE','NONE',#112,#2);
#55=MANIFOLD_SOLID_BREP('GAZ.20.20.60',#113);
#56=AXIS2_PLACEMENT_3D('',#114,#115,#116);
#59=LENGTH_MEASURE_WITH_UNIT(LENGTH_MEASURE(1.0),#117);
#62=DIMENSIONAL_EXPONENTS(1.0,0.0,0.0,0.0,0.0,0.0,0.0);
#64=DIMENSIONAL_EXPONENTS(0.0,0.0,0.0,0.0,0.0,0.0,0.0);
#70=SURFACE_STYLE_USAGE(.BOTH.,#118);
#71=FACE_OUTER_BOUND('',#119,.T.);
#72=FACE_BOUND('',#120,.T.);
#73=CONICAL_SURFACE('',#121,8.0,1.02974425867665);
#74=SURFACE_STYLE_USAGE(.BOTH.,#122);
#75=FACE_BOUND('',#123,.T.);
#76=FACE_OUTER_BOUND('',#124,.T.);
#77=CONICAL_SURFACE('',#125,10.0,0.785398163397448);
#78=SURFACE_STYLE_USAGE(.BOTH.,#126);
#79=FACE_OUTER_BOUND('',#127,.T.);
#80=FACE_OUTER_BOUND('',#128,.T.);
#81=CYLINDRICAL_SURFACE('',#129,8.0);
#82=SURFACE_STYLE_USAGE(.BOTH.,#130);
#83=FACE_OUTER_BOUND('',#131,.T.);
#84=PLANE('',#132);
#85=SURFACE_STYLE_USAGE(.BOTH.,#133);
#86=FACE_BOUND('',#134,.T.);
#87=FACE_BOUND('',#135,.T.);
#88=FACE_OUTER_BOUND('',#136,.T.);
#89=FACE_OUTER_BOUND('',#137,.T.);
#90=CYLINDRICAL_SURFACE('',#138,10.0);
#91=SURFACE_STYLE_USAGE(.BOTH.,#139);
#92=FACE_OUTER_BOUND('',#140,.T.);
#93=FACE_BOUND('',#141,.T.);
#94=PLANE('',#142);
#95=SURFACE_STYLE_USAGE(.BOTH.,#143);
#96=FACE_OUTER_BOUND('',#144,.T.);
#97=PLANE('',#145);
#98=SURFACE_STYLE_USAGE(.BOTH.,#146);
#99=FACE_BOUND('',#147,.T.);
#100=FACE_BOUND('',#148,.T.);
#101=FACE_OUTER_BOUND('',#149,.T.);
#102=PLANE('',#150);
#103=SURFACE_STYLE_USAGE(.BOTH.,#151);
#104=FACE_OUTER_BOUND('',#152,.T.);
#105=FACE_OUTER_BOUND('',#153,.T.);
#106=CYLINDRICAL_SURFACE('',#154,1.621);
#107=SURFACE_STYLE_USAGE(.BOTH.,#155);
#108=FACE_OUTER_BOUND('',#156,.T.);
#109=FACE_OUTER_BOUND('',#157,.T.);
#110=CYLINDRICAL_SURFACE('',#158,1.621);
#111=PRODUCT_CONTEXT('',#20,'mechanical');
#112=PRODUCT_DEFINITION_FORMATION_WITH_SPECIFIED_SOURCE(' ','NONE',#53,.NOT_KNOWN.);
#113=CLOSED_SHELL('',(#34,#36,#38,#40,#42,#44,#46,#48,#50,#52));
#114=CARTESIAN_POINT('',(0.0,0.0,0.0));
#115=DIRECTION('',(0.0,0.0,1.0));
#116=DIRECTION('',(1.0,0.0,0.0));
#117= (NAMED_UNIT(#62)LENGTH_UNIT()SI_UNIT(.MILLI.,.METRE.));
#118=SURFACE_SIDE_STYLE('',(#160));
#119=EDGE_LOOP('',(#161));
#120=VERTEX_LOOP('',#162);
#121=AXIS2_PLACEMENT_3D('',#163,#164,#165);
#122=SURFACE_SIDE_STYLE('',(#166));
#123=EDGE_LOOP('',(#167));
#124=EDGE_LOOP('',(#168));
#125=AXIS2_PLACEMENT_3D('',#169,#170,#171);
#126=SURFACE_SIDE_STYLE('',(#172));
#127=EDGE_LOOP('',(#173));
#128=EDGE_LOOP('',(#174));
#129=AXIS2_PLACEMENT_3D('',#175,#176,#177);
#130=SURFACE_SIDE_STYLE('',(#178));
#131=EDGE_LOOP('',(#179,#180));
#132=AXIS2_PLACEMENT_3D('',#181,#182,#183);
#133=SURFACE_SIDE_STYLE('',(#184));
#134=EDGE_LOOP('',(#185));
#135=EDGE_LOOP('',(#186));
#136=EDGE_LOOP('',(#187));
#137=EDGE_LOOP('',(#188,#189,#190,#191));
#138=AXIS2_PLACEMENT_3D('',#192,#193,#194);
#139=SURFACE_SIDE_STYLE('',(#195));
#140=EDGE_LOOP('',(#196));
#141=EDGE_LOOP('',(#197));
#142=AXIS2_PLACEMENT_3D('',#198,#199,#200);
#143=SURFACE_SIDE_STYLE('',(#201));
#144=EDGE_LOOP('',(#202,#203));
#145=AXIS2_PLACEMENT_3D('',#204,#205,#206);
#146=SURFACE_SIDE_STYLE('',(#207));
#147=EDGE_LOOP('',(#208));
#148=EDGE_LOOP('',(#209));
#149=EDGE_LOOP('',(#210,#211,#212,#213));
#150=AXIS2_PLACEMENT_3D('',#214,#215,#216);
#151=SURFACE_SIDE_STYLE('',(#217));
#152=EDGE_LOOP('',(#218));
#153=EDGE_LOOP('',(#219));
#154=AXIS2_PLACEMENT_3D('',#220,#221,#222);
#155=SURFACE_SIDE_STYLE('',(#223));
#156=EDGE_LOOP('',(#224));
#157=EDGE_LOOP('',(#225));
#158=AXIS2_PLACEMENT_3D('',#226,#227,#228);
#160=SURFACE_STYLE_FILL_AREA(#229);
#161=ORIENTED_EDGE('',*,*,#230,.F.);
#162=VERTEX_POINT('',#231);
#163=CARTESIAN_POINT('',(0.0,-58.0,2.16840434497101E-016));
#164=DIRECTION('',(-0.0,-1.0,0.0));
#165=DIRECTION('',(0.0,0.0,1.0));
#166=SURFACE_STYLE_FILL_AREA(#232);
#167=ORIENTED_EDGE('',*,*,#233,.F.);
#168=ORIENTED_EDGE('',*,*,#234,.F.);
#169=CARTESIAN_POINT('',(0.0,-107.5,0.0));
#170=DIRECTION('',(-0.0,1.0,-0.0));
#171=DIRECTION('',(0.0,0.0,1.0));
#172=SURFACE_STYLE_FILL_AREA(#235);
#173=ORIENTED_EDGE('',*,*,#230,.T.);
#174=ORIENTED_EDGE('',*,*,#236,.F.);
#175=CARTESIAN_POINT('',(0.0,-108.0,2.16840434497101E-016));
#176=DIRECTION('',(0.0,1.0,0.0));
#177=DIRECTION('',(0.0,0.0,-1.0));
#178=SURFACE_STYLE_FILL_AREA(#237);
#179=ORIENTED_EDGE('',*,*,#238,.T.);
#180=ORIENTED_EDGE('',*,*,#239,.T.);
#181=CARTESIAN_POINT('',(0.0,0.0,0.0));
#182=DIRECTION('',(0.0,1.0,0.0));
#183=DIRECTION('',(0.0,0.0,1.0));
#184=SURFACE_STYLE_FILL_AREA(#240);
#185=ORIENTED_EDGE('',*,*,#241,.F.);
#186=ORIENTED_EDGE('',*,*,#242,.F.);
#187=ORIENTED_EDGE('',*,*,#234,.T.);
#188=ORIENTED_EDGE('',*,*,#243,.F.);
#189=ORIENTED_EDGE('',*,*,#238,.F.);
#190=ORIENTED_EDGE('',*,*,#244,.F.);
#191=ORIENTED_EDGE('',*,*,#245,.F.);
#192=CARTESIAN_POINT('',(0.0,-108.0,0.0));
#193=DIRECTION('',(0.0,1.0,0.0));
#194=DIRECTION('',(0.0,0.0,1.0));
#195=SURFACE_STYLE_FILL_AREA(#246);
#196=ORIENTED_EDGE('',*,*,#233,.T.);
#197=ORIENTED_EDGE('',*,*,#236,.T.);
#198=CARTESIAN_POINT('',(0.0,-108.0,0.0));
#199=DIRECTION('',(0.0,1.0,0.0));
#200=DIRECTION('',(0.0,0.0,1.0));
#201=SURFACE_STYLE_FILL_AREA(#247);
#202=ORIENTED_EDGE('',*,*,#248,.T.);
#203=ORIENTED_EDGE('',*,*,#245,.T.);
#204=CARTESIAN_POINT('',(3.67381906146713E-016,-48.0,30.0));
#205=DIRECTION('',(0.0,-1.0,0.0));
#206=DIRECTION('',(0.0,0.0,-1.0));
#207=SURFACE_STYLE_FILL_AREA(#249);
#208=ORIENTED_EDGE('',*,*,#250,.F.);
#209=ORIENTED_EDGE('',*,*,#251,.F.);
#210=ORIENTED_EDGE('',*,*,#243,.T.);
#211=ORIENTED_EDGE('',*,*,#248,.F.);
#212=ORIENTED_EDGE('',*,*,#244,.T.);
#213=ORIENTED_EDGE('',*,*,#239,.F.);
#214=CARTESIAN_POINT('',(8.40256683676266E-016,0.0,30.0));
#215=DIRECTION('',(1.0,-9.85155786519902E-018,0.0));
#216=DIRECTION('',(9.85155786519902E-018,1.0,0.0));
#217=SURFACE_STYLE_FILL_AREA(#252);
#218=ORIENTED_EDGE('',*,*,#251,.T.);
#219=ORIENTED_EDGE('',*,*,#242,.T.);
#220=CARTESIAN_POINT('',(111.642285895623,-5.5,3.33705231416597E-015));
#221=DIRECTION('',(-1.0,-1.35024238738555E-017,0.0));
#222=DIRECTION('',(1.35024238738555E-017,-1.0,0.0));
#223=SURFACE_STYLE_FILL_AREA(#253);
#224=ORIENTED_EDGE('',*,*,#250,.T.);
#225=ORIENTED_EDGE('',*,*,#241,.T.);
#226=CARTESIAN_POINT('',(111.642285895623,-41.6,1.12663784551659E-015));
#227=DIRECTION('',(-1.0,-1.35024238738555E-017,0.0));
#228=DIRECTION('',(1.35024238738555E-017,-1.0,0.0));
#229=FILL_AREA_STYLE('',(#254));
#230=EDGE_CURVE('',#255,#255,#256,.T.);
#231=CARTESIAN_POINT('',(0.0,-53.1931150477795,2.16840434497101E-016));
#232=FILL_AREA_STYLE('',(#257));
#233=EDGE_CURVE('',#258,#258,#259,.F.);
#234=EDGE_CURVE('',#260,#260,#261,.T.);
#235=FILL_AREA_STYLE('',(#262));
#236=EDGE_CURVE('',#263,#263,#264,.T.);
#237=FILL_AREA_STYLE('',(#265));
#238=EDGE_CURVE('',#266,#267,#268,.T.);
#239=EDGE_CURVE('',#267,#266,#269,.T.);
#240=FILL_AREA_STYLE('',(#270));
#241=EDGE_CURVE('',#271,#271,#272,.T.);
#242=EDGE_CURVE('',#273,#273,#274,.T.);
#243=EDGE_CURVE('',#267,#275,#276,.F.);
#244=EDGE_CURVE('',#277,#266,#278,.T.);
#245=EDGE_CURVE('',#275,#277,#279,.F.);
#246=FILL_AREA_STYLE('',(#280));
#247=FILL_AREA_STYLE('',(#281));
#248=EDGE_CURVE('',#277,#275,#282,.T.);
#249=FILL_AREA_STYLE('',(#283));
#250=EDGE_CURVE('',#284,#284,#285,.T.);
#251=EDGE_CURVE('',#286,#286,#287,.T.);
#252=FILL_AREA_STYLE('',(#288));
#253=FILL_AREA_STYLE('',(#289));
#254=FILL_AREA_STYLE_COLOUR('',#290);
#255=VERTEX_POINT('',#291);
#256=CIRCLE('',#292,8.0);
#257=FILL_AREA_STYLE_COLOUR('',#293);
#258=VERTEX_POINT('',#294);
#259=CIRCLE('',#295,9.5);
#260=VERTEX_POINT('',#296);
#261=CIRCLE('',#297,10.0);
#262=FILL_AREA_STYLE_COLOUR('',#298);
#263=VERTEX_POINT('',#299);
#264=CIRCLE('',#300,8.0);
#265=FILL_AREA_STYLE_COLOUR('',#301);
#266=VERTEX_POINT('',#302);
#267=VERTEX_POINT('',#303);
#268=CIRCLE('',#304,10.0);
#269=LINE('',#305,#306);
#270=FILL_AREA_STYLE_COLOUR('',#307);
#271=VERTEX_POINT('',#308);
#272=B_SPLINE_CURVE_WITH_KNOTS('',3,(#309,#310,#311,#312,#313,#314,#315,#316,#317,#318,#319,#320,#321,#322,#323,#324,#325,#326,#327,#328,#329,#330,#331,#332,#333,#334,#335,#336,#337,#338,#339,#340,#341,#342,#343,#344,#345,#346,#347,#348,#349,#350,#351,#352,#353,#354,#355,#356,#357,#358),.UNSPECIFIED.,.T.,.F.,(2,2,2,2,2,2,2,2,2,2,2,2,2,2,2,2,2,2,2,2,2,2,2,2,2,2,2),(-0.00063446668344274,0.0,0.000317233341721394,0.000634466683442788,0.000951700025164181,0.00126893336688558,0.00190340005032835,0.00253786673377112,0.00285510007549251,0.00317233341721389,0.00380680010065667,0.00412403344237805,0.00444126678409943,0.00475850012582081,0.00507573346754219,0.00571020015098494,0.0063446668344277,0.00666190017614908,0.00697913351787046,0.0076136002013132,0.00793083354303457,0.00824806688475594,0.00856530022647731,0.00888253356819868,0.00951700025164142,0.0101514669350842,0.0104687002768056),.UNSPECIFIED.);
#273=VERTEX_POINT('',#359);
#274=B_SPLINE_CURVE_WITH_KNOTS('',3,(#360,#361,#362,#363,#364,#365,#366,#367,#368,#369,#370,#371,#372,#373,#374,#375,#376,#377,#378,#379,#380,#381,#382,#383,#384,#385,#386,#387,#388,#389,#390,#391,#392,#393,#394,#395,#396,#397,#398,#399,#400,#401,#402,#403,#404,#405,#406,#407,#408,#409),.UNSPECIFIED.,.T.,.F.,(2,2,2,2,2,2,2,2,2,2,2,2,2,2,2,2,2,2,2,2,2,2,2,2,2,2,2),(-0.000634466683442759,0.0,0.000317233341721377,0.000634466683442754,0.000951700025164131,0.00126893336688551,0.00190340005032826,0.00253786673377102,0.00285510007549239,0.00317233341721377,0.00380680010065653,0.0041240334423779,0.00444126678409928,0.00475850012582066,0.00507573346754203,0.00571020015098479,0.00634466683442754,0.00666190017614892,0.0069791335178703,0.00761360020131305,0.00793083354303443,0.00824806688475581,0.00856530022647719,0.00888253356819857,0.00951700025164132,0.0101514669350841,0.0104687002768055),.UNSPECIFIED.);
#275=VERTEX_POINT('',#410);
#276=LINE('',#411,#412);
#277=VERTEX_POINT('',#413);
#278=LINE('',#414,#415);
#279=CIRCLE('',#416,10.0);
#280=FILL_AREA_STYLE_COLOUR('',#417);
#281=FILL_AREA_STYLE_COLOUR('',#418);
#282=LINE('',#419,#420);
#283=FILL_AREA_STYLE_COLOUR('',#421);
#284=VERTEX_POINT('',#422);
#285=CIRCLE('',#423,1.621);
#286=VERTEX_POINT('',#424);
#287=CIRCLE('',#425,1.621);
#288=FILL_AREA_STYLE_COLOUR('',#426);
#289=FILL_AREA_STYLE_COLOUR('',#427);
#290=COLOUR_RGB('',0.980392158031464,0.980392158031464,0.980392158031464);
#291=CARTESIAN_POINT('',(0.0,-58.0,8.0));
#292=AXIS2_PLACEMENT_3D('',#428,#429,#430);
#293=COLOUR_RGB('',0.980392158031464,0.980392158031464,0.980392158031464);
#294=CARTESIAN_POINT('',(-2.32682891837997E-015,-108.0,9.5));
#295=AXIS2_PLACEMENT_3D('',#431,#432,#433);
#296=CARTESIAN_POINT('',(0.0,-107.5,10.0));
#297=AXIS2_PLACEMENT_3D('',#434,#435,#436);
#298=COLOUR_RGB('',0.980392158031464,0.980392158031464,0.980392158031464);
#299=CARTESIAN_POINT('',(0.0,-108.0,-8.0));
#300=AXIS2_PLACEMENT_3D('',#437,#438,#439);
#301=COLOUR_RGB('',0.980392158031464,0.980392158031464,0.980392158031464);
#302=CARTESIAN_POINT('',(8.40256683676266E-016,0.0,10.0));
#303=CARTESIAN_POINT('',(8.40256683676266E-016,0.0,-10.0));
#304=AXIS2_PLACEMENT_3D('',#440,#441,#442);
#305=CARTESIAN_POINT('',(8.40256683676266E-016,0.0,0.0));
#306=VECTOR('',#443,1.0);
#307=COLOUR_RGB('',0.980392158031464,0.980392158031464,0.980392158031464);
#308=CARTESIAN_POINT('',(10.0,-43.221,1.1518563880486E-015));
#309=CARTESIAN_POINT('',(10.0,-43.221,0.214560919416295));
#310=CARTESIAN_POINT('',(10.0,-43.221,-0.107280459708154));
#311=CARTESIAN_POINT('',(9.99827535697554,-43.2104553419698,-0.212733185693935));
#312=CARTESIAN_POINT('',(9.9917088178957,-43.1691722009357,-0.420143333381703));
#313=CARTESIAN_POINT('',(9.98678809400411,-43.1379199172344,-0.52318871199807));
#314=CARTESIAN_POINT('',(9.97457337935452,-43.0564941940879,-0.719408620171149));
#315=CARTESIAN_POINT('',(9.96733400459211,-43.006692549106,-0.812444772926143));
#316=CARTESIAN_POINT('',(9.95141441578499,-42.8890638631603,-0.988516460894656));
#317=CARTESIAN_POINT('',(9.94268626105227,-42.820716285361,-1.07174276979301));
#318=CARTESIAN_POINT('',(9.91685260980362,-42.5967925255942,-1.2956098628507));
#319=CARTESIAN_POINT('',(9.89953186957487,-42.4162315197474,-1.41632048071223));
#320=CARTESIAN_POINT('',(9.8750305643972,-42.0262995482984,-1.57812112749137));
#321=CARTESIAN_POINT('',(9.86776333827658,-41.8127447925017,-1.62087837757479));
#322=CARTESIAN_POINT('',(9.86773343498763,-41.495020689667,-1.62106041214031));
#323=CARTESIAN_POINT('',(9.86948539690975,-41.3874185038285,-1.61049625608565));
#324=CARTESIAN_POINT('',(9.8761563531663,-41.1793894855252,-1.56906847476254));
#325=CARTESIAN_POINT('',(9.88104041115586,-41.0782598758473,-1.53841860768613));
#326=CARTESIAN_POINT('',(9.89951981135305,-40.7835552092185,-1.41642973073467));
#327=CARTESIAN_POINT('',(9.91663109842131,-40.6051550882517,-1.2975011375945));
#328=CARTESIAN_POINT('',(9.942760345936,-40.3786277959683,-1.07111488148633));
#329=CARTESIAN_POINT('',(9.95131823801441,-40.3116840645736,-0.989452200611997));
#330=CARTESIAN_POINT('',(9.96719596343782,-40.1942906954826,-0.814097634171027));
#331=CARTESIAN_POINT('',(9.97458412166659,-40.1434332002304,-0.71925036091834));
#332=CARTESIAN_POINT('',(9.9867886007402,-40.0620777009672,-0.523166250832322));
#333=CARTESIAN_POINT('',(9.99162853521229,-40.0313367768343,-0.422130232715767));
#334=CARTESIAN_POINT('',(9.99825059148311,-39.9896961739669,-0.214055667872998));
#335=CARTESIAN_POINT('',(9.99999329979714,-39.9790413337653,-0.106505737214528));
#336=CARTESIAN_POINT('',(10.0000133406887,-39.9789177008653,0.211118588087146));
#337=CARTESIAN_POINT('',(9.99288811326622,-40.0214464491417,0.424759311576546));
#338=CARTESIAN_POINT('',(9.96864522905011,-40.1829939409679,0.815073993183942));
#339=CARTESIAN_POINT('',(9.95145431147601,-40.3034382084414,0.995601600196312));
#340=CARTESIAN_POINT('',(9.92559360751388,-40.5273646458352,1.21994176230116));
#341=CARTESIAN_POINT('',(9.91683368496233,-40.6106133884276,1.28838274841666));
#342=CARTESIAN_POINT('',(9.90084721259198,-40.7863225091931,1.40596760792368));
#343=CARTESIAN_POINT('',(9.89354216189439,-40.8792901854071,1.45586054124046));
#344=CARTESIAN_POINT('',(9.87499400422661,-41.1738919219426,1.57839130616588));
#345=CARTESIAN_POINT('',(9.86777218887799,-41.3844345666405,1.62082450001317));
#346=CARTESIAN_POINT('',(9.86772907732168,-41.7057970440801,1.62108693919836));
#347=CARTESIAN_POINT('',(9.8694585067679,-41.8112076808059,1.61065894153278));
#348=CARTESIAN_POINT('',(9.87607947563942,-42.0187401064674,1.56955013733445));
#349=CARTESIAN_POINT('',(9.88105359097296,-42.1219544391925,1.53833190379046));
#350=CARTESIAN_POINT('',(9.89335011739549,-42.3180479888437,1.45715770201098));
#351=CARTESIAN_POINT('',(9.90063610943374,-42.4111399307167,1.40745380288589));
#352=CARTESIAN_POINT('',(9.91664270381681,-42.5874994333886,1.28985234175006));
#353=CARTESIAN_POINT('',(9.92538287892982,-42.6706845145406,1.2216402020065));
#354=CARTESIAN_POINT('',(9.95120431030212,-42.8946444958642,0.998024589211442));
#355=CARTESIAN_POINT('',(9.96843985991241,-43.0155781021313,0.817526059714347));
#356=CARTESIAN_POINT('',(9.992758811414,-43.1777505460735,0.42768380365678));
#357=CARTESIAN_POINT('',(10.0,-43.221,0.214560919416295));
#358=CARTESIAN_POINT('',(10.0,-43.221,-0.107280459708154));
#359=CARTESIAN_POINT('',(10.0,-7.121,3.24740234702858E-015));
#360=CARTESIAN_POINT('',(9.99999999999999,-7.12099999999999,0.214560919416314));
#361=CARTESIAN_POINT('',(10.0,-7.121,-0.107280459708151));
#362=CARTESIAN_POINT('',(9.99827535697554,-7.11045534196975,-0.212733185693932));
#363=CARTESIAN_POINT('',(9.9917088178957,-7.06917220093567,-0.420143333381698));
#364=CARTESIAN_POINT('',(9.98678809400412,-7.03791991723438,-0.523188711998071));
#365=CARTESIAN_POINT('',(9.97457337935453,-6.95649419408792,-0.719408620171148));
#366=CARTESIAN_POINT('',(9.9673340045921,-6.90669254910601,-0.812444772926141));
#367=CARTESIAN_POINT('',(9.95141441578499,-6.78906386316027,-0.988516460894656));
#368=CARTESIAN_POINT('',(9.94268626105227,-6.72071628536099,-1.07174276979301));
#369=CARTESIAN_POINT('',(9.91685260980362,-6.49679252559423,-1.2956098628507));
#370=CARTESIAN_POINT('',(9.89953186957487,-6.31623151974739,-1.41632048071223));
#371=CARTESIAN_POINT('',(9.87503056439719,-5.9262995482984,-1.57812112749137));
#372=CARTESIAN_POINT('',(9.86776333827658,-5.71274479250175,-1.62087837757479));
#373=CARTESIAN_POINT('',(9.86773343498762,-5.39502068966694,-1.62106041214031));
#374=CARTESIAN_POINT('',(9.86948539690975,-5.28741850382854,-1.61049625608565));
#375=CARTESIAN_POINT('',(9.8761563531663,-5.0793894855252,-1.56906847476254));
#376=CARTESIAN_POINT('',(9.88104041115586,-4.97825987584727,-1.53841860768613));
#377=CARTESIAN_POINT('',(9.89951981135306,-4.68355520921846,-1.41642973073467));
#378=CARTESIAN_POINT('',(9.91663109842131,-4.50515508825165,-1.2975011375945));
#379=CARTESIAN_POINT('',(9.94276034593601,-4.27862779596834,-1.07111488148633));
#380=CARTESIAN_POINT('',(9.95131823801441,-4.21168406457359,-0.989452200611992));
#381=CARTESIAN_POINT('',(9.96719596343782,-4.09429069548264,-0.814097634171023));
#382=CARTESIAN_POINT('',(9.97458412166659,-4.04343320023043,-0.719250360918336));
#383=CARTESIAN_POINT('',(9.98678860074021,-3.96207770096725,-0.52316625083232));
#384=CARTESIAN_POINT('',(9.99162853521229,-3.93133677683425,-0.422130232715763));
#385=CARTESIAN_POINT('',(9.99825059148311,-3.88969617396689,-0.214055667872993));
#386=CARTESIAN_POINT('',(9.99999329979713,-3.87904133376532,-0.106505737214528));
#387=CARTESIAN_POINT('',(10.0000133406888,-3.8789177008653,0.211118588087148));
#388=CARTESIAN_POINT('',(9.99288811326623,-3.92144644914167,0.424759311576548));
#389=CARTESIAN_POINT('',(9.96864522905011,-4.08299394096792,0.815073993183943));
#390=CARTESIAN_POINT('',(9.951454311476,-4.20343820844138,0.995601600196318));
#391=CARTESIAN_POINT('',(9.92559360751388,-4.42736464583516,1.21994176230116));
#392=CARTESIAN_POINT('',(9.91683368496232,-4.51061338842761,1.28838274841666));
#393=CARTESIAN_POINT('',(9.90084721259198,-4.68632250919315,1.40596760792368));
#394=CARTESIAN_POINT('',(9.89354216189439,-4.77929018540711,1.45586054124047));
#395=CARTESIAN_POINT('',(9.87499400422661,-5.07389192194259,1.57839130616588));
#396=CARTESIAN_POINT('',(9.867772188878,-5.28443456664048,1.62082450001318));
#397=CARTESIAN_POINT('',(9.86772907732167,-5.60579704408011,1.62108693919837));
#398=CARTESIAN_POINT('',(9.8694585067679,-5.71120768080586,1.61065894153278));
#399=CARTESIAN_POINT('',(9.87607947563942,-5.91874010646736,1.56955013733445));
#400=CARTESIAN_POINT('',(9.88105359097296,-6.0219544391925,1.53833190379046));
#401=CARTESIAN_POINT('',(9.89335011739548,-6.21804798884364,1.45715770201099));
#402=CARTESIAN_POINT('',(9.90063610943374,-6.31113993071667,1.40745380288589));
#403=CARTESIAN_POINT('',(9.91664270381681,-6.48749943338864,1.28985234175006));
#404=CARTESIAN_POINT('',(9.92538287892982,-6.57068451454063,1.22164020200651));
#405=CARTESIAN_POINT('',(9.95120431030212,-6.79464449586427,0.998024589211442));
#406=CARTESIAN_POINT('',(9.96843985991241,-6.91557810213127,0.817526059714347));
#407=CARTESIAN_POINT('',(9.99275881141401,-7.07775054607352,0.42768380365678));
#408=CARTESIAN_POINT('',(9.99999999999999,-7.12099999999999,0.214560919416314));
#409=CARTESIAN_POINT('',(10.0,-7.121,-0.107280459708151));
#410=CARTESIAN_POINT('',(3.67381906146713E-016,-48.0,-10.0));
#411=CARTESIAN_POINT('',(-2.23711565765228E-016,-108.0,-10.0));
#412=VECTOR('',#444,1.0);
#413=CARTESIAN_POINT('',(3.67381906146713E-016,-48.0,10.0));
#414=CARTESIAN_POINT('',(-2.23711565765228E-016,-108.0,10.0));
#415=VECTOR('',#445,1.0);
#416=AXIS2_PLACEMENT_3D('',#446,#447,#448);
#417=COLOUR_RGB('',0.980392158031464,0.980392158031464,0.980392158031464);
#418=COLOUR_RGB('',0.980392158031464,0.980392158031464,0.980392158031464);
#419=CARTESIAN_POINT('',(3.67381906146713E-016,-48.0,30.0));
#420=VECTOR('',#449,1.0);
#421=COLOUR_RGB('',0.980392158031464,0.980392158031464,0.980392158031464);
#422=CARTESIAN_POINT('',(1.38007008772913E-015,-39.979,1.12663784551659E-015));
#423=AXIS2_PLACEMENT_3D('',#450,#451,#452);
#424=CARTESIAN_POINT('',(8.92632585882951E-016,-3.879,3.33705231416597E-015));
#425=AXIS2_PLACEMENT_3D('',#453,#454,#455);
#426=COLOUR_RGB('',0.121568627655506,0.749019622802734,0.121568627655506);
#427=COLOUR_RGB('',0.121568627655506,0.749019622802734,0.121568627655506);
#428=CARTESIAN_POINT('',(0.0,-58.0,2.16840434497101E-016));
#429=DIRECTION('',(0.0,1.0,0.0));
#430=DIRECTION('',(0.0,0.0,1.0));
#431=CARTESIAN_POINT('',(0.0,-108.0,0.0));
#432=DIRECTION('',(0.0,1.0,0.0));
#433=DIRECTION('',(0.0,0.0,1.0));
#434=CARTESIAN_POINT('',(0.0,-107.5,0.0));
#435=DIRECTION('',(0.0,1.0,0.0));
#436=DIRECTION('',(0.0,0.0,1.0));
#437=CARTESIAN_POINT('',(0.0,-108.0,2.16840434497101E-016));
#438=DIRECTION('',(0.0,1.0,0.0));
#439=DIRECTION('',(0.0,0.0,-1.0));
#440=CARTESIAN_POINT('',(0.0,0.0,0.0));
#441=DIRECTION('',(-0.0,1.0,0.0));
#442=DIRECTION('',(1.0,0.0,0.0));
#443=DIRECTION('',(0.0,0.0,1.0));
#444=DIRECTION('',(0.0,1.0,0.0));
#445=DIRECTION('',(0.0,1.0,0.0));
#446=CARTESIAN_POINT('',(0.0,-48.0,0.0));
#447=DIRECTION('',(0.0,-1.0,0.0));
#448=DIRECTION('',(0.0,0.0,-1.0));
#449=DIRECTION('',(0.0,0.0,-1.0));
#450=CARTESIAN_POINT('',(1.40195751682865E-015,-41.6,1.12663784551659E-015));
#451=DIRECTION('',(-1.0,-1.35024238738555E-017,0.0));
#452=DIRECTION('',(-1.35024238738555E-017,1.0,0.0));
#453=CARTESIAN_POINT('',(9.14520014982471E-016,-5.5,3.33705231416597E-015));
#454=DIRECTION('',(-1.0,-1.35024238738555E-017,0.0));
#455=DIRECTION('',(-1.35024238738555E-017,1.0,0.0));
ENDSEC;
END-ISO-10303-21;
